Skaburbian

Skaburbian

Saturday, 19 January 2013 12:23

Contact

For bookings and other questions:

This email address is being protected from spambots. You need JavaScript enabled to view it.

 

 

Wednesday, 16 January 2013 16:40

Utopi added to the bass tabs section

We've added the bass line from utopi to the bass tabs section Feel free to jam along

Wednesday, 16 January 2013 13:57

Utopi - Bass Tab

Utopi Bass Tab


Verse

G|----------------------------------------------------------|
D|----------------------------------------------------------|
A|--------4--7-----9-9-7-9-7---7----------------------------|
E|------5--------------------9------------------------------|

Chorus

G|----------------------------------------------------------|
D|---------------------9--7--6-----11--9--7-----4--5--7-----|
A|---------4--5--6--7-----------9------------5--------------|
E|------5---------------------------------------------------|

Monday, 31 December 2012 17:38

Happy new year

The Collective wishes everyone a happy new year. See you in 2013

Sunday, 23 December 2012 11:49

Bass tabs section

We've now added a bass tab section for those of you feel like jamming along to the skaburbian tunes. You'll find them under "lyrics and chords".

Sunday, 23 December 2012 11:38

Whaea - Bass tab

Whaea Bass Tab

 

G|-----------------------------------------------------------------|
D|-----------------------------------------------------------------|
A|---7--9--10-------10--9------------7--9--10-------10--9----------|
E|-------------------------10------------------------------10------|

Friday, 21 December 2012 12:29

Little girl - Bass tab

Little Girl Bass Tab


Verse and Chorus

G|--------------------------------------------------------------|
D|--------------------------------------------------------------|
A|------------2--5----5--7--7--7-------7--5--------------7--5---|
E|---5------5---------------------------------5-------5---------|

 

Friday, 21 December 2012 10:30

Flow - Bass tab

Flow Bass Tab

Verse and chorus(with some slight variations)

G|-----------------------------------------------------------------|
D|--------7----7---------------------------------------------------|
A|--5---5------------------4-4--5------------9----9---------9---7--|
E|---------------5------5------------7---7----------7-----7--------|


2:nd verse fill-in

G|-----------------------------------------------------------------|
D|-----------------------------------------------------------------|
A|-------7--9-----9--9--9---7--------------------------------------|
E|-----------------------------------------------------------------|

 

 

Tuesday, 18 December 2012 21:45

Add our Facebook banners to your wall

Check out our Facebook banners and add them to your wall. Banners are available in the Gallery section

Saturday, 15 December 2012 19:00

Gallery section added

We've added a gallery section where you can view photos of the collective

Page 5 of 7

Mailing list